  0
SECTION
  2
HEADER
  9
$ACADVER
  1
AC1009
  9
$INSBASE
 10
71.48635506239929
 20
-73.70553642587128
 30
0.0
  9
$EXTMIN
 10
71.48635506239929
 20
-73.70553642587128
 30
0.0
  9
$EXTMAX
 10
1177.753278350334
 20
436.1895435695277
 30
0.0
  9
$LIMMIN
 10
0.0
 20
0.0
  9
$LIMMAX
 10
420.0
 20
297.0
  9
$ORTHOMODE
 70
     1
  9
$REGENMODE
 70
     1
  9
$FILLMODE
 70
     1
  9
$QTEXTMODE
 70
     0
  9
$MIRRTEXT
 70
     0
  9
$DRAGMODE
 70
     2
  9
$LTSCALE
 40
1.0
  9
$OSMODE
 70
     0
  9
$ATTMODE
 70
     1
  9
$TEXTSIZE
 40
3.5
  9
$TRACEWID
 40
0.05
  9
$TEXTSTYLE
  7
STANDARD
  9
$CLAYER
  8
0
  9
$CELTYPE
  6
BYLAYER
  9
$CECOLOR
 62
   256
  9
$DIMSCALE
 40
1.0
  9
$DIMASZ
 40
2.5
  9
$DIMEXO
 40
1.0
  9
$DIMDLI
 40
8.0
  9
$DIMRND
 40
0.0
  9
$DIMDLE
 40
0.0
  9
$DIMEXE
 40
2.0
  9
$DIMTP
 40
0.1
  9
$DIMTM
 40
0.1
  9
$DIMTXT
 40
3.5
  9
$DIMCEN
 40
2.0
  9
$DIMTSZ
 40
0.0
  9
$DIMTOL
 70
     0
  9
$DIMLIM
 70
     0
  9
$DIMTIH
 70
     0
  9
$DIMTOH
 70
     0
  9
$DIMSE1
 70
     0
  9
$DIMSE2
 70
     0
  9
$DIMTAD
 70
     1
  9
$DIMZIN
 70
     8
  9
$DIMBLK
  1

  9
$DIMASO
 70
     0
  9
$DIMSHO
 70
     0
  9
$DIMPOST
  1

  9
$DIMAPOST
  1

  9
$DIMALT
 70
     0
  9
$DIMALTD
 70
     2
  9
$DIMALTF
 40
25.39999999999999
  9
$DIMLFAC
 40
1.0
  9
$DIMTOFL
 70
     1
  9
$DIMTVP
 40
0.0
  9
$DIMTIX
 70
     0
  9
$DIMSOXD
 70
     0
  9
$DIMSAH
 70
     0
  9
$DIMBLK1
  1

  9
$DIMBLK2
  1

  9
$DIMSTYLE
  2
*UNNAMED
  9
$DIMCLRD
 70
     0
  9
$DIMCLRE
 70
     0
  9
$DIMCLRT
 70
     0
  9
$DIMTFAC
 40
1.0
  9
$DIMGAP
 40
0.09
  9
$LUNITS
 70
     2
  9
$LUPREC
 70
     3
  9
$SKETCHINC
 40
0.1
  9
$FILLETRAD
 40
20.0
  9
$AUNITS
 70
     0
  9
$AUPREC
 70
     3
  9
$MENU
  1

  9
$ELEVATION
 40
0.0
  9
$PELEVATION
 40
0.0
  9
$THICKNESS
 40
0.0
  9
$LIMCHECK
 70
     0
  9
$BLIPMODE
 70
     0
  9
$CHAMFERA
 40
0.0
  9
$CHAMFERB
 40
0.0
  9
$SKPOLY
 70
     1
  9
$TDCREATE
 40
2448784.574280902
  9
$TDUPDATE
 40
2449393.435651967
  9
$TDINDWG
 40
0.0025218750
  9
$TDUSRTIMER
 40
0.0025218750
  9
$USRTIMER
 70
     1
  9
$ANGBASE
 50
0.0
  9
$ANGDIR
 70
     0
  9
$PDMODE
 70
     3
  9
$PDSIZE
 40
2.0
  9
$PLINEWID
 40
0.0
  9
$COORDS
 70
     2
  9
$SPLFRAME
 70
     0
  9
$SPLINETYPE
 70
     6
  9
$SPLINESEGS
 70
     8
  9
$ATTDIA
 70
     1
  9
$ATTREQ
 70
     1
  9
$HANDLING
 70
     0
  9
$HANDSEED
  5
98
  9
$SURFTAB1
 70
     6
  9
$SURFTAB2
 70
     6
  9
$SURFTYPE
 70
     6
  9
$SURFU
 70
     6
  9
$SURFV
 70
     6
  9
$UCSNAME
  2

  9
$UCSORG
 10
0.0
 20
0.0
 30
0.0
  9
$UCSXDIR
 10
1.0
 20
0.0
 30
0.0
  9
$UCSYDIR
 10
0.0
 20
1.0
 30
0.0
  9
$PUCSNAME
  2

  9
$PUCSORG
 10
0.0
 20
0.0
 30
0.0
  9
$PUCSXDIR
 10
1.0
 20
0.0
 30
0.0
  9
$PUCSYDIR
 10
0.0
 20
1.0
 30
0.0
  9
$USERI1
 70
     0
  9
$USERI2
 70
     3
  9
$USERI3
 70
    15
  9
$USERI4
 70
     0
  9
$USERI5
 70
     0
  9
$USERR1
 40
0.0
  9
$USERR2
 40
1.0
  9
$USERR3
 40
0.0
  9
$USERR4
 40
1.0
  9
$USERR5
 40
0.0
  9
$WORLDVIEW
 70
     1
  9
$SHADEDGE
 70
     3
  9
$SHADEDIF
 70
    70
  9
$TILEMODE
 70
     1
  9
$MAXACTVP
 70
    16
  9
$PINSBASE
 10
0.0
 20
0.0
 30
0.0
  9
$PLIMCHECK
 70
     0
  9
$PEXTMIN
 10
1.000000000000000E+20
 20
1.000000000000000E+20
 30
1.000000000000000E+20
  9
$PEXTMAX
 10
-1.000000000000000E+20
 20
-1.000000000000000E+20
 30
-1.000000000000000E+20
  9
$PLIMMIN
 10
0.0
 20
0.0
  9
$PLIMMAX
 10
12.0
 20
9.0
  9
$UNITMODE
 70
     0
  9
$VISRETAIN
 70
     0
  9
$PLINEGEN
 70
     0
  9
$PSLTSCALE
 70
     0
  9
$TREEDEPTH
 70
  3020
  9
$DWGCODEPAGE
  3
undefined
  0
ENDSEC
  0
SECTION
  2
TABLES
  0
TABLE
  2
VPORT
 70
     2
  0
VPORT
  2
*ACTIVE
 70
     0
 10
0.0
 20
0.0
 11
1.0
 21
1.0
 12
624.6198167063666
 22
359.8948466424929
 13
0.0
 23
0.0
 14
7.0
 24
7.0
 15
0.0
 25
0.0
 16
0.0
 26
0.0
 36
1.0
 17
0.0
 27
0.0
 37
0.0
 40
867.2007661367284
 41
1.275675675675675
 42
50.0
 43
0.0
 44
0.0
 50
0.0
 51
0.0
 71
     0
 72
 10000
 73
     1
 74
     0
 75
     0
 76
     0
 77
     0
 78
     0
  0
ENDTAB
  0
TABLE
  2
LTYPE
 70
     2
  0
LTYPE
  2
AUSGEZOGEN
 70
    64
  3
Solid line
 72
    65
 73
     0
 40
0.0
  0
LTYPE
  2
CONTINUOUS
 70
    64
  3
Solid line
 72
    65
 73
     0
 40
0.0
  0
ENDTAB
  0
TABLE
  2
LAYER
 70
     4
  0
LAYER
  2
0
 70
    64
 62
     7
  6
AUSGEZOGEN
  0
LAYER
  2
ITEM_50
 70
    64
 62
     7
  6
AUSGEZOGEN
  0
LAYER
  2
ITEM_INFO
 70
    64
 62
     4
  6
AUSGEZOGEN
  0
LAYER
  2
AIT$50
 70
    64
 62
     7
  6
CONTINUOUS
  0
ENDTAB
  0
TABLE
  2
STYLE
 70
     1
  0
STYLE
  2
STANDARD
 70
    64
 40
0.0
 41
1.0
 50
0.0
 71
     0
 42
3.5
  3
iso
  4

  0
ENDTAB
  0
TABLE
  2
VIEW
 70
     0
  0
ENDTAB
  0
TABLE
  2
UCS
 70
     0
  0
ENDTAB
  0
TABLE
  2
APPID
 70
     1
  0
APPID
  2
ACAD
 70
    64
  0
ENDTAB
  0
TABLE
  2
DIMSTYLE
 70
     0
  0
ENDTAB
  0
ENDSEC
  0
SECTION
  2
BLOCKS
  0
BLOCK
  8
0
  2
27500V1
 70
     0
 10
0.0
 20
0.0
 30
0.0
  3
27500V1
  0
INSERT
  8
ITEM_50
  2
910308154352899
 10
756.9999999999753
 20
99.99999999997544
 30
0.0
  0
INSERT
  8
ITEM_50
  2
910308154352739
 10
39.99999999997538
 20
99.99999999997544
 30
0.0
  0
POLYLINE
  8
ITEM_50
 66
     1
 10
0.0
 20
0.0
 30
0.0
 70
     1
  0
VERTEX
  8
ITEM_50
 10
41.99999999997538
 20
79.99999999997544
 30
0.0
  0
VERTEX
  8
ITEM_50
 10
756.9999999999753
 20
79.99999999997544
 30
0.0
  0
VERTEX
  8
ITEM_50
 10
756.9999999999753
 20
156.9999999999754
 30
0.0
  0
VERTEX
  8
ITEM_50
 10
41.99999999997533
 20
156.9999999999754
 30
0.0
  0
SEQEND
  8
ITEM_50
  0
ENDBLK
  8
0
  0
BLOCK
  8
0
  2
910308154352739
 70
    64
 10
0.0
 20
0.0
 30
0.0
  3
910308154352739
  0
LINE
  8
ITEM_50
 10
0.0
 20
0.0
 30
0.0
 11
2.0
 21
0.0
 31
0.0
  0
LINE
  8
ITEM_50
 10
0.0
 20
16.0
 30
0.0
 11
2.0
 21
16.0
 31
0.0
  0
LINE
  8
ITEM_50
 10
0.0
 20
24.0
 30
0.0
 11
2.0
 21
24.0
 31
0.0
  0
LINE
  8
ITEM_50
 10
0.0
 20
40.0
 30
0.0
 11
2.0
 21
40.0
 31
0.0
  0
LINE
  8
ITEM_50
 10
0.0
 20
0.0
 30
0.0
 11
0.0
 21
40.0
 31
0.0
  0
LINE
  8
ITEM_50
 10
2.0
 20
0.0
 30
0.0
 11
2.0
 21
40.0
 31
0.0
  0
ENDBLK
  8
0
  0
BLOCK
  8
0
  2
910308154352899
 70
    64
 10
0.0
 20
0.0
 30
0.0
  3
910308154352899
  0
LINE
  8
ITEM_50
 10
0.0
 20
0.0
 30
0.0
 11
2.0
 21
0.0
 31
0.0
  0
LINE
  8
ITEM_50
 10
0.0
 20
16.0
 30
0.0
 11
2.0
 21
16.0
 31
0.0
  0
LINE
  8
ITEM_50
 10
0.0
 20
24.0
 30
0.0
 11
2.0
 21
24.0
 31
0.0
  0
LINE
  8
ITEM_50
 10
0.0
 20
40.0
 30
0.0
 11
2.0
 21
40.0
 31
0.0
  0
LINE
  8
ITEM_50
 10
0.0
 20
0.0
 30
0.0
 11
0.0
 21
40.0
 31
0.0
  0
LINE
  8
ITEM_50
 10
2.0
 20
0.0
 30
0.0
 11
2.0
 21
40.0
 31
0.0
  0
ENDBLK
  8
0
  0
BLOCK
  8
0
  2
MB-INFO
 70
     2
 10
0.0
 20
0.0
 30
0.0
  3
MB-INFO
  0
ATTDEF
  8
ITEM_INFO
 10
3.750837039791271
 20
-2.035179277449222
 30
0.0
 40
3.5
  1

  3
Bezeichnung (1)
  2
MB-BEZ1
 70
     1
  0
ATTDEF
  8
ITEM_INFO
 10
3.750837039791271
 20
-7.868512610782556
 30
0.0
 40
3.5
  1

  3
Bezeichnung (2)
  2
MB-BEZ2
 70
     1
  0
ATTDEF
  8
ITEM_INFO
 10
3.750837039791271
 20
-13.70184594411588
 30
0.0
 40
3.5
  1
item GmbH
  3
Lieferant (1)
  2
MB-LIE1
 70
     1
  0
ATTDEF
  8
ITEM_INFO
 10
3.750837039791271
 20
-19.53517927744922
 30
0.0
 40
3.5
  1

  3
Lieferant (2)
  2
MB-LIE2
 70
     1
  0
ATTDEF
  8
ITEM_INFO
 10
3.750837039791271
 20
-25.36851261078255
 30
0.0
 40
3.5
  1

  3
Material (1)
  2
MB-MAT1
 70
     1
  0
ATTDEF
  8
ITEM_INFO
 10
3.750837039791271
 20
-31.20184594411588
 30
0.0
 40
3.5
  1

  3
Material (2)
  2
MB-MAT2
 70
     1
  0
ATTDEF
  8
ITEM_INFO
 10
3.764897737590588
 20
-37.19375316218494
 30
0.0
 40
3.5
  1
0.0
  3
L„nge
  2
MB-LAE
 70
     1
  0
ATTDEF
  8
ITEM_INFO
 10
3.764897737590588
 20
-43.02708649551827
 30
0.0
 40
3.5
  1
0.0
  3
Breite
  2
MB-BRE
 70
     1
  0
ATTDEF
  8
ITEM_INFO
 10
3.764897737590588
 20
-48.86041982885161
 30
0.0
 40
3.5
  1
0
  3
Bestell-Nummer
  2
MB-NR
 70
     1
  0
LINE
  8
ITEM_INFO
 10
0.0
 20
1.472308310936917
 30
0.0
 11
0.0
 21
-1.472308310936917
 31
0.0
  0
LINE
  8
ITEM_INFO
 10
-1.275056399474328
 20
-0.7361541554684584
 30
0.0
 11
1.275056399474328
 21
0.7361541554684584
 31
0.0
  0
LINE
  8
ITEM_INFO
 10
-1.275056399474328
 20
0.7361541554684589
 30
0.0
 11
1.275056399474328
 21
-0.7361541554684589
 31
0.0
  0
ENDBLK
  8
0
  0
BLOCK
  8
0
  2
27500S1
 70
     0
 10
0.0
 20
0.0
 30
0.0
  3
27500S1
  0
LINE
  8
ITEM_50
 10
204.2528274236708
 20
79.99999999997407
 30
0.0
 11
-0.0000000000109139
 21
134.9090810103396
 31
0.0
  0
LINE
  8
ITEM_50
 10
207.0000000000015
 20
90.34649411862301
 30
0.0
 11
204.2528274236708
 21
79.99999999997407
 31
0.0
  0
LINE
  8
ITEM_50
 10
-0.0000000000109139
 20
145.3085630841437
 30
0.0
 11
207.0000000000015
 21
90.34649411862301
 31
0.0
  0
ENDBLK
  8
0
  0
BLOCK
  8
0
  2
27500D2
 70
     0
 10
0.0
 20
0.0
 30
0.0
  3
27500D2
  0
INSERT
  8
0
  2
910308160424059
 10
760.0
 20
420.0
 30
0.0
  0
INSERT
  8
0
  2
910308160424059
 10
42.5
 20
420.0
 30
0.0
  0
POLYLINE
  8
AIT$50
 66
     1
 10
0.0
 20
0.0
 30
0.0
 70
     1
  0
VERTEX
  8
AIT$50
 10
42.5
 20
213.0
 30
0.0
  0
VERTEX
  8
AIT$50
 10
757.5
 20
213.0
 30
0.0
  0
VERTEX
  8
AIT$50
 10
757.5
 20
503.0
 30
0.0
  0
VERTEX
  8
AIT$50
 10
42.5
 20
503.0
 30
0.0
  0
SEQEND
  8
AIT$50
  0
ENDBLK
  8
0
  0
BLOCK
  8
0
  2
910308160424059
 70
    64
 10
0.0
 20
0.0
 30
0.0
  3
910308160424059
  0
LINE
  8
AIT$50
 10
0.0
 20
0.0
 30
0.0
 11
0.0
 21
40.0
 31
0.0
  0
LINE
  8
AIT$50
 10
-2.5
 20
0.0
 30
0.0
 11
-2.5
 21
40.0
 31
0.0
  0
LINE
  8
AIT$50
 10
-2.5
 20
40.0
 30
0.0
 11
0.0
 21
40.0
 31
0.0
  0
LINE
  8
AIT$50
 10
-2.5
 20
24.0
 30
0.0
 11
0.0
 21
24.0
 31
0.0
  0
LINE
  8
AIT$50
 10
-2.5
 20
16.0
 30
0.0
 11
0.0
 21
16.0
 31
0.0
  0
LINE
  8
AIT$50
 10
-2.5
 20
0.0
 30
0.0
 11
0.0
 21
0.0
 31
0.0
  0
ENDBLK
  8
0
  0
ENDSEC
  0
SECTION
  2
ENTITIES
  0
LINE
  8
AIT$50
 10
791.4863550623992
 20
133.2944635741287
 30
0.0
 11
791.4863550623992
 21
173.2944635741287
 31
0.0
  0
LINE
  8
AIT$50
 10
788.9863550623992
 20
133.2944635741287
 30
0.0
 11
788.9863550623992
 21
173.2944635741287
 31
0.0
  0
LINE
  8
AIT$50
 10
788.9863550623992
 20
173.2944635741287
 30
0.0
 11
791.4863550623992
 21
173.2944635741287
 31
0.0
  0
LINE
  8
AIT$50
 10
788.9863550623992
 20
157.2944635741287
 30
0.0
 11
791.4863550623992
 21
157.2944635741287
 31
0.0
  0
LINE
  8
AIT$50
 10
788.9863550623992
 20
149.2944635741287
 30
0.0
 11
791.4863550623992
 21
149.2944635741287
 31
0.0
  0
LINE
  8
AIT$50
 10
788.9863550623992
 20
133.2944635741287
 30
0.0
 11
791.4863550623992
 21
133.2944635741287
 31
0.0
  0
LINE
  8
AIT$50
 10
73.98635506239929
 20
133.2944635741287
 30
0.0
 11
73.98635506239929
 21
173.2944635741287
 31
0.0
  0
LINE
  8
AIT$50
 10
71.48635506239929
 20
133.2944635741287
 30
0.0
 11
71.48635506239929
 21
173.2944635741287
 31
0.0
  0
LINE
  8
AIT$50
 10
71.48635506239929
 20
173.2944635741287
 30
0.0
 11
73.98635506239929
 21
173.2944635741287
 31
0.0
  0
LINE
  8
AIT$50
 10
71.48635506239929
 20
157.2944635741287
 30
0.0
 11
73.98635506239929
 21
157.2944635741287
 31
0.0
  0
LINE
  8
AIT$50
 10
71.48635506239929
 20
149.2944635741287
 30
0.0
 11
73.98635506239929
 21
149.2944635741287
 31
0.0
  0
LINE
  8
AIT$50
 10
71.48635506239929
 20
133.2944635741287
 30
0.0
 11
73.98635506239929
 21
133.2944635741287
 31
0.0
  0
LINE
  8
ITEM_50
 10
73.98635506239934
 20
359.1895435695277
 30
0.0
 11
788.9863550623992
 21
359.1895435695277
 31
0.0
  0
LINE
  8
ITEM_50
 10
788.9863550623992
 20
359.1895435695277
 30
0.0
 11
788.9863550623992
 21
436.1895435695277
 31
0.0
  0
LINE
  8
ITEM_50
 10
788.9863550623992
 20
436.1895435695277
 30
0.0
 11
73.98635506239928
 21
436.1895435695277
 31
0.0
  0
LINE
  8
ITEM_50
 10
73.98635506239928
 20
436.1895435695277
 30
0.0
 11
73.98635506239934
 21
359.1895435695277
 31
0.0
  0
LINE
  8
ITEM_50
 10
1175.006105774003
 20
359.1895435695277
 30
0.0
 11
970.7532783503215
 21
414.0986245798932
 31
0.0
  0
LINE
  8
ITEM_50
 10
1177.753278350334
 20
369.5360376881766
 30
0.0
 11
1175.006105774003
 21
359.1895435695277
 31
0.0
  0
LINE
  8
ITEM_50
 10
970.7532783503215
 20
424.4981066536973
 30
0.0
 11
1177.753278350334
 21
369.5360376881766
 31
0.0
  0
LINE
  8
AIT$50
 10
73.98635506239929
 20
-73.70553642587128
 30
0.0
 11
788.9863550623992
 21
-73.70553642587128
 31
0.0
  0
LINE
  8
AIT$50
 10
788.9863550623992
 20
-73.70553642587128
 30
0.0
 11
788.9863550623992
 21
216.2944635741287
 31
0.0
  0
LINE
  8
AIT$50
 10
788.9863550623992
 20
216.2944635741287
 30
0.0
 11
73.98635506239929
 21
216.2944635741287
 31
0.0
  0
LINE
  8
AIT$50
 10
73.98635506239929
 20
216.2944635741287
 30
0.0
 11
73.98635506239929
 21
-73.70553642587128
 31
0.0
  0
LINE
  8
ITEM_50
 10
71.98635506239934
 20
379.1895435695277
 30
0.0
 11
73.98635506239934
 21
379.1895435695277
 31
0.0
  0
LINE
  8
ITEM_50
 10
71.98635506239934
 20
395.1895435695277
 30
0.0
 11
73.98635506239934
 21
395.1895435695277
 31
0.0
  0
LINE
  8
ITEM_50
 10
71.98635506239934
 20
403.1895435695277
 30
0.0
 11
73.98635506239934
 21
403.1895435695277
 31
0.0
  0
LINE
  8
ITEM_50
 10
71.98635506239934
 20
419.1895435695277
 30
0.0
 11
73.98635506239934
 21
419.1895435695277
 31
0.0
  0
LINE
  8
ITEM_50
 10
71.98635506239934
 20
379.1895435695277
 30
0.0
 11
71.98635506239934
 21
419.1895435695277
 31
0.0
  0
LINE
  8
ITEM_50
 10
73.98635506239934
 20
379.1895435695277
 30
0.0
 11
73.98635506239934
 21
419.1895435695277
 31
0.0
  0
LINE
  8
ITEM_50
 10
788.9863550623992
 20
379.1895435695277
 30
0.0
 11
790.9863550623992
 21
379.1895435695277
 31
0.0
  0
LINE
  8
ITEM_50
 10
788.9863550623992
 20
395.1895435695277
 30
0.0
 11
790.9863550623992
 21
395.1895435695277
 31
0.0
  0
LINE
  8
ITEM_50
 10
788.9863550623992
 20
403.1895435695277
 30
0.0
 11
790.9863550623992
 21
403.1895435695277
 31
0.0
  0
LINE
  8
ITEM_50
 10
788.9863550623992
 20
419.1895435695277
 30
0.0
 11
790.9863550623992
 21
419.1895435695277
 31
0.0
  0
LINE
  8
ITEM_50
 10
788.9863550623992
 20
379.1895435695277
 30
0.0
 11
788.9863550623992
 21
419.1895435695277
 31
0.0
  0
LINE
  8
ITEM_50
 10
790.9863550623992
 20
379.1895435695277
 30
0.0
 11
790.9863550623992
 21
419.1895435695277
 31
0.0
  0
ENDSEC
  0
EOF
